The Smiths & Morrissey Bass Tabs

Jeane

(Morrissey/Marr)
			
Intro
G |---------------------------02--02|
D |---------------------------------|
A |---------------------------------|
E |---------------------------------|

Verse A                                Verse B                             Verse End
G |-----7---------------------------| |-----7---------------------02--02| |---------------------------------|
D |-----------------0-0-0-0---------| |-----------------0-0-0-0---------| |---------------------------------|
A |-5---------0-2-0-----------0---0-| |-5---------0-2-0-----------------| |---------------------------------|
E |---------2-----------------------| |---------2-----------------------| |-3---3-3-3-3-3-3-5-5-5---7-7---5-|

Chorus
G |---------------------------------|---------------------------------|
D |---------------------------------|---------------------------------|
A |-----------------5---5-----------|-----------------5-------5---5---|
E |-3-----5---3-5-3-------5---3-5-3-|-3-----5---3-5-3-------5---5---5-|

G |---------------------------------|---------------------------------|
D |---------------------------------|---------------------------------|
A |-----------------5---------------|---------------------------------|
E |-3-----5---3-5-3-------5---3-5-3-|-3-3-3-3-3-3-3-3-5-5-5-7---7-5---|

Break
G |---------------------------------|---------------------------------|
D |------<9>-------<9>---<7>--------|------<9>-------------<9>--------| <> Harmonics
A |-------------------------------4-|--------------4------------------|
E |-2-----------2-4-----------------|-2--------------2----------------|
   
Order:
[00:00] Intro
[00:04] Verse A,B,A,End 3x
[00:45] Verse A <span class="TABLYR">(That it isn't there...)</span>
[00:49] Chorus <span class="TABLYR">(We tried and we failed)</span>

[01:02] Verse B,A,End
[01:13] Verse B,A,A,End
[01:27] Verse A
[01:30] Chorus <span class="TABLYR">(We tried and we failed)</span>

[01:44] Verse A,A,End
[01:55] Verse B,A,A,End
[02:08] Verse A

[02:11] Break

[02:19] Verse A,A,End <span class="TABLYR">(Ahahaha)</span>
[02:29] Verse A,A,A,End
[02:42] Verse B
[02:46] Chorus


		
Scroll