The Smiths & Morrissey Bass Tabs

Is It Really So Strange?

(Morrissey/Marr)
			
Intro (x marks Highhat)
G |---------------------------------|---------------------------------|
D |-----+---+---+---+-------+---+---|-----+---+---+-------+-------+---|
A |---------------------------------|---------------------------------|
E |-0-------------------0-----------|-0---------------5-------7-------|

Verse
G |---------------------------------|---------------------------------||
D |---------------------------------|-----/6---6----------------------||
A |------/7---7-5--------/7---7-5---|------------7--------------------||
E |-0-------------7-0-------------7-|-0-------------4-5---5---7---7---|| 3x

Bridge
G |---------------------------------|---------------------------------|
D |---------------------------------|---------------------------------|
A |-------7-------------4---7---4---|-----------------7777777777777777|
E |-0-------------4h5---------------|-0---0---0---0-------------------|

Chorus
G |---------------------------------|---------------------------------||
D |---------------------------------|---------------------------------||
A |---------4---4-----------2---2---|-5---4---2h4-----5---4-2---4----2||
E |-4---4-----------2---2-----------|---0---0-----4-0---0---------4---|| 2x

G |---------------------------------|---------------------------------|---------------------------------|
D |---------------------------------|-------5-5-------------5---------|-------6-------------------------|
A |---------4---4-----------2---0---|-----------5h7-----------7-------|---------7---7---555555--5---5---|
E |-4---4-----------2---2-----------|-5-5-------------5-5-------7-----|-7-7-------7---------------------|


Order:
[00:00] Intro

[00:07] Verse | Bridge
[00:36] Chorus
Repeat Above

[01:55] Intro
[02:02] Verse | Bridge
[02:31] Chorus

		
Scroll