The Smiths & Morrissey Bass Tabs

I Won't Share You

(Morrissey/Marr)
			
Chorus
G |---------------------------------||     |---------------------------------|
D |---------------------------------||     |---------------------------------|
A |----------(0)0---------3---5---5-||     |-----------0-0---------3---5---0-|
E |-----3---------------------------|| 3x  |-----3---------------------------|

Verse A
G |-------2-------2-----------------|---------------------------------|
D |-----------4-------2-2-------0---|---------------------------------|
A |-2-------------------------------|-3-------------3-5-------------0-|
E |---------------------------------|-------------3-------------------|

Verse B
G |-------7-------------------------|---------------------------------|-----------------|
D |-----------5---7---2-2-----------|---------------------------------|-----------------|	
A |-2-----------------------------5-|-3-------------3-5-------------0-|-5-------3---5---|
E |---------------------------------|-------------3-------------------|-----------------|

Verse C
G |-------7-------------------------|---------------------------------|
D |-----------5---7---2-2-----------|---------------------------------|
A |-2---------------------------5---|-3-------------3-5-------------0-|
E |---------------------------------|-----------3---------------------|

G |-------7-------------------------|---------------5-----------------|-----------------|
D |-----------5---7---2-2-----------|-----------5---------------------|-----------------|	
A |-2---------------------------5---|-3-----------------5---------0---|-5-------3---5---|
E |---------------------------------|---------------------------------|-----------------|

Verse D
G |-------7-------------------------|---------------5-----------------|
D |-----------5---7---2-2-----------|-----------5---------------------|
A |-2-----------------------------5-|-3---------------5-------------0-|
E |---------------------------------|---------------------------------|

G |-------7-------------------------|---------------------------------|-----------------|
D |-----------5---7---2-2-----------|---------------------------------|-----------------|	
A |-2---------------------------5---|-3---------------5---------------|-----0---3---5---|
E |---------------------------------|-------------3-------------------|-----------------|

Order:
[00:00] Chorus
[00:21] Verse A
[00:31] Verse B
[00:44] Chorus

[01:05] Verse C
[01:29] Chorus
[01:50] Verse D
[02:13] Chorus (Play the ghost notes)
[02:34] Verse B (Fades Out)


		
Scroll