The Smiths & Morrissey Bass Tabs

I Want The One I Can't Have

(Morrissey/Marr)
			
Verse A
G |---------------------------------|---------------------------------|
D |---------------------------------|---------------------------------|
A |-------------5-3-3---3-3---------|-5---5-5-5-7-5---2---2-2-2-2-2-2-|
E |-3---3-3---3---------------------|---------------------------------|

Verse B                              Verse B End
G |---------------------------------|---------------------------------|
D |---------------------------------|---------------------------------|
A |-3---3-3---3-5-7-5---5-5---5-5-5-|-7---2-2---2-2-2-3-2-3-5---------|
E |---------------------------------|-----------------------------2-2*| *) Only prior to Verse A

Chorus                                                                   Chorus End
G |---------------------------------|---------------------------------| |---------------------------------|
D |---------------------------------|---------------2-----------------| |-------9-----9-----9-----9-------|
A |-----------------2-----2---2-0-2-|-3-----3---3-5---5-----5---------| |-5---7---7-7---7-7---7-7---7-7---|
E |-5-----5---5-3-5-----------------|-----------------------------5---| |---------------------------------|

Order:
[00:04] Verse A | B,End
[00:14] Verse A | B,End,End
[00:27] Chorus 2x | Chorus End 2x
[00:42] Verse B, End
[00:52] Chorus 2x

[01:03] Repeat Above
[02:01] Repeat That Again

[03:01] Chorus End 4x


		
Scroll