The Smiths & Morrissey Bass Tabs

I Started Something I Couldn't Finish

(Morrissey/Marr)
			
Intro
G |---------------------------------|
D |---------------------------------|
A |-------------------------7---5---|
E |---------------------0-----------|

Chorus
G |---------------------------------||     |---------------------------------|
D |---------------------------------||     |-0---0---0---0---2~~-----3~~-----|
A |-4-----2-----2---4-----2-----2---||     |---------------------------------|
E |---------4---------------4-------|| 2x  |-------------------------3?------|

Break A                                Break B                             Break C
G |---------------------------------| |---------------------------------| |---------------------------------|
D |---------------------------------| |---------------------------------| |-----------------4-------2---0---|
A |-------------------------0---1---| |-------------------------0---1---| |-------2-------------------------|
E |-2-----0---------2---2-----------| |-2--2--0---------2---2-----------| |-2-------------------------------|

Verse                                  Verse Ending1
G |---------------------------------| |---------------------------------|
D |---------------------------------| |---------------------------------|
A |-2-----2-----0---2-----2-----0---| |-5-----5-0---2-------------------|
E |---------2---------------2-------| |-----------------0-------0---1---|

Verse Ending2 (With Fill)
G |---------------------------------|---------------------------------|
D |---------------------------------|---------------------------------|
A |-5-----5-0---2-------------------|-5h7-----5h7-----5h7-----5h7-----|
E |-----------------0-------0---0---|---------------------------------|

Order:
[00:04] Intro
[00:07] Chorus
[00:18] Break A
[00:21] Verse | Ending 1
[00:28] Break A,B
[00:35] Verse | Ending 2

[00:44] Chorus <span class="TABLYR">(I started something...)</span>
[00:55] Break C
[00:58] Chorus <span class="TABLYR">(Hair brussed...) </span>
[01:09] Break A,B
[01:16] C,C ending1 <span class="TABLYR">(I grabbed you by...)</span>
[01:23] Break A,B
[01:30] C,C ending2 <span class="TABLYR">(And I doused another venture)</span>

[01:39] Chorus <span class="TABLYR">(I started somthing...)</span>
[01:50] Break C
[01:53] Chorus <span class="TABLYR">(Hair brussed...)</span>
[02:04] Break A,A,B
[02:15] C ending1
[02:23] Break A,A,B
[02:29] C ending2

[02:38] Chorus | Break C
Repeat until end


		
Scroll