The Smiths & Morrissey Bass Tabs

I Know It's Over

(Morrissey/Marr)
			
Verse A
G |---------------------------------|---------------------------------|---------------------------------|
D |---------------------------------|---------------------------------|---------------------------------|
A |-3-----3-----3-----3-----3-----3-|-----3~~---------0-----0-----0---|---0-----0-----0-----------------|
E |-----3-----3-----3-----3-----3---|---3-----3-0---3-----0-----0-----|-0-----0-----0---(3)-1~~---3~~---|

G |---------------------------------|---------------------------------|---------------------------------|
D |---------------------------------|---------------------------------|---2~~~5-------------------------|
A |-3-----3-----3-----3-----3-----3-|-----3~~---------0-----0-----0---|---------0-----0-----------------|
E |-----3-----3-----3-----3-----3---|---3-----3-0---3-----0-----0-----|-0-----------0-----0-1~~---3~~---|

Chorus A
G |---------------------------------|---------------------------------|---------------------------------|
D |---------------------------------|---------------------------------|---------------------------------|
A |---------------------3-5---------|-------------3-5-----------------|---------------------------------|
E |-1-1-1-1-0-1-3-3-3-3-----1-1-1-1-|-0-1-3-3-3-3-----1-1-1-1-0-0-1-1-|-1-1-0-1-3~~-----3-3-1~~---3~~---|

Verse B
G |---------------------------------|---------------------------------|---------------------------------|
D |---------------------------------|---------------------------------|-----------------5-7-------------|
A |-3-----------3-----------3-------|-----3~~---2~~---0---------------|---------------------------------|
E |---------0-3-----------3---------|---3---------------------0-3-5---|-------3-5-----------1~~---3~~---|

G |---------------------------------|---------------------------------|---------------------------------|
D |---------------------------------|---------------------------------|---------------------------------|
A |-3-----------3-----------3-------|-----3~~---2~~---0---------------|---------------------------------|
E |---------0-3-----------3---------|---3---------------------0-3-5---|-------3-5---------3-1~~---3~~---|

G |---------------------------------|---------------------------------|---------------------------------|
D |---------------------------------|---------------------------------|---------------------------------|
A |-3-----------3-----------3-------|-----3~~---2~~---0---------------|---------------------------------|
E |---------5-3-----------3---------|-0-3---------------------0-3-5---|-----0-3-5-------3-5-1~~---3~~---|

G |---------------------------------|---------------------------------|---------------------------------|
D |---------------------------------|---------------------------------|-----------------3-5-----3-----5-|
A |-3-----------3-----------3-------|-----3~~---2~~---0---------------|-----------------------3-----5---|
E |---------5-3-----------3---------|-0-3---------------------0-3-5---|-----0-3-5-5-5-5-----1-----3-----|

Chorus B
G |---------------------------------|---------------------------------|---------------------------------|
D |---------3-5---------------------|---------------------------------|-------------------------3-----5-|
A |-3-3-3-3-------------------------|-3-5---------------------5-7-----|-----------------3-5---3-----5---|
E |-------------1---1-1-0-1-3---3-3-|-----1~~---3~~---5---5-5-----1---|-1-1-0-1-3---3-3-----1-----3-----|

Verse C
G |---------------------------------|---------------------------------|---------------------------------||
D |---------------------------------|---------------------------------|---------------------------------|| *) Not
A |-3-----------3-------------------|-----3----2------0---------------|-------------------*-------------||    1st time
E |---------0-3-----------8\0-------|---3---------------------0-3-5---|-------3-5---------5-1~~---3~~---|| 5x

G |---------------------------------|---------------------------------|---------------------------------|
D |---------------------------------|---------------------------------|-----------------3-5-----3-----5-|
A |-3-----------3-------------------|-----3-3-5-2-----0---------------|-----------------------3-----5---|
E |---------0-3-----------8\0-------|---3---------------------0-3-5---|-----(3)-5-5-5-5-----1-----3-----|

Chorus C
G |---------------------------------|---------------------------------|---------------------------------|
D |---------3-5---------------------|---------------------2-2-----2---|-2-2-----------------------------|
A |-3-3-3-3-------------------------|-3-5---------------------0-2-----|---------------------------------|
E |-------------1---1-1-0-1-3---3-3-|-----1~~---3~~---0---------------|-----3-5-1---1-1-0-1-3~~---3-5-2-|

Order:
[00:01] Verse A
[00:28] Chorus A
[00:41] Verse B
[01:35] Chorus A (Replace final bar with that of Chorus B)
[01:xx] Chorus B
[02:02] Verse C
[03:18] Chorus A
[03:31] Chorus B
[03:44] Chorus C
[03:57] Chorus B
[04:11] Chorus C | Chorus B
Repeat Chorus C and B until end


		
Scroll