The Smiths & Morrissey Bass Tabs

I Don't Owe You Anything

(Morrissey/Marr)
			
[00:00] Intro A
G |---------------------------------|
D |---------------------------------|
A |-5-------5-5-----2-----2-2~~-----|
E |-------5-------0-----------------|

[00:04] Verse A
G |---------------------------------||     |---------------------------------|---------------------------------|
D |---------------------------------||     |-----------------------------2---|---------4-4-2---------6---6-4---|
A |---------4-4-2---------4---4-2---||     |---------4-4-2---------4---4-----|-0-----0-------0-2---------------|
E |-0-----0---------0---------------|| 2x  |-0-----0---------0---------------|---------------------------------|

[00:21] Repeat Above

[00:38] Verse B (Did I really...)
G |---------------------------------|---------------------------------|
D |-----------------------------2---|---------4-4-2---------6---6--4--|
A |---------4-4-2---------4---4-----|-0-----0-------0-2---------------|
E |-0-----0---------0---------------|---------------------------------|
                                                                         Alternate Ending
G |---------------------------------|---------------------------------| |---------------------------------|
D |---------------------------------|-----------------------------2---| |---------------------------------|
A |---------4-4-2-------------------|-5-------5-5-----2-2---2-2-4---4-| |-5-------5-5-----2-2---2-2---2-3-|
E |-0-----0---------0-----0---0-2-0-|-------5-------0-----------------| |-------5-------0-----------2-----|

[00:55] Repeat Above (but with Alternate Ending)

[01:12] Bridge                         Intro B (This is both Bars)
G |---------------------------4-----| |---------------------------------|---------------------------------|
D |---------2-2-1-----------2---1-2-| |-----------------------------2---|---------------------------------|
A |-4-----4-------2-4-----4---------| |-5-------5-5-----2-2---2-2-4---4-|---------4-4-2---------4---4-2---|
E |---------------------------------| |-------5-------0-----------------|-0-----0---------0---------------|

[01:25] Chorus
G |---------------------------------|---------------------------------|---------------------------------|
D |---------------2---1-------------|---------------------------------|---------------2---1-------------|
A |-----------------------0-0-------|---------------4---2---4-4-------|-----------------------0-0-----0-|
E |-4-----4-4-----------------------|-0-----0-0---------------------0-|-4-----4-4-----------------------|

Order:
[00:00] As Above
[01:37] Repeat this whole thing

[03:10] Intro B
[03:14] Verse A (Play only the final 2 bars)
[03:44] Verse A (Full)
[03:52] Intro B


		
Scroll