The Smiths & Morrissey Bass Tabs

How Soon Is Now?

(Morrissey/Marr)
			
Intro
G |---------------------------------|
D |---------------------------------|
A |-0-----0-0---0-------2---2-------|
E |---------------------------------|

Verse A and Verse B (Replace 2nd bar on the right)
G |---------------------------------|---------------------------------|  |---------------------------1h2---|
D |---------------------4-----1h2---|---------------------1-----1h2---|  |---------------------2-----------|
A |---------------------------------|---------------------------------|  |---------------------------------|
E |-0---2---0---2-------------------|-0---2---0---2-------------------|  |-0---2---0---2-------------------|

G |---------------------------------|---------------------------------|
D |---------------------4---2-------|---------------------------------|
A |---------------------------4-2---|-0-----0-0---0-------2---2-------|
E |-0---2---0---2-------------------|---------------------------------|

Chorus
G |---------------------------------|---------------------------------|
D |---------------------------------|---------------------------------|
A |-2-----2-----2/------5---5\------|-0-----0-----0/------7---7-------|
E |---------------------------------|---------------------------------|

G |---------------------------------|---------------------------------|
D |---------------------------------|---------------------------------|
A |-4-----4-----4/------7---7/------|-9\------------------------------|
E |---------------------------------|-----2---2---0-------2---2-------|

Post Chorus A
G |---------------------------------|---------------------------------|
D |-------------4-------4---2-------|---------------------1-----1h2---|
A |---------------------------4-2---|---------------------------------|
E |-0---2---------------------------|-0---2---0---2-------------------|

G |---------------------------------|---------------------------------|
D |---------------------4---2-------|---------------------------------|
A |---------------------------4-2---|-0-----0-0---0-------2---2-------|
E |-0---2---0---2-------------------|---------------------------------|

Post Chorus B
G |---------------------------------|-------------------------1h2-----|
D |-------------4-------4---2-------|---------------------1h2---------|
A |---------------------------4-2---|---------------------------------|
E |-0---2---------------------------|-0---2---0---2-------------------|

G |---------------------------------|---------------------------------|
D |---------------------------------|---------------------------------|
A |------------------------0?-2?----|-0-----0-0---0-------2---2-------|
E |-0---2-------2-------2?----------|---------------------------------|

Order:
[00:07] Intro
[00:10] Verse A 3x
[00:40] Chorus 2 x
[01:00] Post Chorus A
[01:10] Verse A

[01:21] Verse B 2x
[01:41] Chorus 2x
[02:01] Post Chorus B

[02:11] Verse B,A,B
[02:41] Chorus 2x <span class="TABLYR">(There's A Club...)</span>
[02:59] Post Chorus A

[03:12] Verse B,A,A
[03:42] Chorus 2x <span class="TABLYR">(When you say...)</span>
[04:02] Post Chorus A

[04:13] Verse A,A,B
[04:42] Chorus 2x (Skip Last Bar)
[05:00] [Rest]

[05:16] Verse A,A,A
[05:43] Chorus 2x
[06:00] Post Chorus A
[06:13] Verse A,A,A


		
Scroll