The Smiths & Morrissey Bass Tabs

Heaven Knows I'm Miserable Now

(Morrissey/Marr)
			

Intro
G |------------66-------------------|---------------------------------|
D |-4~~-----------4-----------------|---------------------------------|
A |-----------------5~~--------00-5-|-4---------------2---------------|
E |---------------------------------|-----------4~~-----------------2-|

G |---------------------------------|---------------------------------|
D |---------------------------4-4---|---------------------------4-4---|
A |-2-------2-2---2-4--------2-2--4-|-2-------2-2---2-4--------2-2--4-|
E |--------2-2----------------------|--------2-2----------------------|

Verse A
G |---------4-3-1-------------------|---------------------------------|
D |-------4-------4-1-----1---------|-----------------------------4---|
A |-------------------------1---0---|-----------------2-----224-44--4-|
E |-2----2--------------------------|-4-----4-2-----2-----------------|

G |---------4-3-1-------------------|---------------------------------|
D |-------4-------4-1-----1---------|---------------------------------|
A |-------------------------1---0---|-----------------2-----2-2---9\--|
E |-2----2--------------------------|-4-----4-2-----2-----------------|

G |---------------------------------|---------------------------------|
D |---------4-----------------------|-------4---------9-------8-------|
A |-------------4---2-----2-4-----4-|--------4------------------------|
E |-2-----2-------------------------|-2----2--2-----2-7-----7-6-----6-|

G |-11------10------8------/15------|---------------------------------|
D |---------------------------------|-9-------11------9-------8-------|
A |-9-----9-8-------6-----6/13------|---------------------------------|
E |---------------------------------|-7-----7-9-----9-7-----7-6-----6-|

Instrumental
G |-11------10------8------/15------|---------------8/10--------------|
D |---------------------------------|-9-------------9/11--------------|
A |-9-----9-8-----8-6-----6/13------|---------------------------------|
E |---------------------------------|-7-------------------------------|

Verse B
G |---------4-3-1-------------------|---------------------------------||
D |-------4-------4-1-----1---------|------------------------4--4-4-3-||
A |-------------------------1---0---|-----------------2-----2-2--2----||
E |-2----2--------------------------|-4-----4-2-----2-----------------|| 4x

Order:
[00:00] Intro
[00:16] Verse A
[00:50] Instrumental
[00:59] Verse B
[01:33] Intro
[01:49] Verse A
[02:22] Instrumental
[02:31] Verse B
[03:21] Intro (Skip last two bars/End with an E)


		
Scroll