The Smiths & Morrissey Bass Tabs

Handsome Devil

(Morrissey/Marr)
			
Verse
G |---------------------------------|---------------------------------|
D |---------------------------------|---------------------------------|
A |-4---4-2---4---------4-2---2-----|-4---4-2---4---------4-2---2-----|
E |---------------------------------|---------------------------------|

G |---------------------------------|---------------------------------|
D |-----------2---------2-----------|-----------4---------4\6---------|
A |-0---0-0---------------0---------|-2---2-2-------------------------|
E |---------------------------------|---------------------------------|

Chorus
G |---------------------------------|---------------------------------|
D |---------------------------------|---------------------------------|
A |-----------7-------7-------------|-----------7-------7-6-----------|
E |-5---5-5-------------5-----------|-7---7-7-------------------------|

G |---------------------------------|---------------------------------|
D |-----------6-------6-------------|---------------------------------|
A |-4---4-4-------------7-----------|-----------7---7-6---6---4-------|
E |---------------------------------|-7---7-7-------------------------|

Chorus Ending
G |---------------------------------|---------------------------------|
D |---------------------------------|---------------------4-----------|
A |-----------7---------------------|---------------6-----------------|
E |-5---5-5-------------5-----------|-4---4-4---4---------------------|

Order:
[00:00] Verse 4x

[00:10] Verse 4x
[00:39] Chorus 3x
[00:54] Chorus Ending 2x
Repeat this many times


		
Scroll