The Smiths & Morrissey Bass Tabs

Hand In Glove

(Morrissey/Marr)
			
Part A
G |------------/7-------5-----------|---------------------------------|
D |-3---3-------------------7-------|-1---1---------------------------|
A |-----------------------------3---|-------------1-------1---1---3---|
E |---------------------------------|---------------------------------|

G |------------/7-------5-----------|---------------------------------|
D |-3---3--------------------7------|-1---1---------------------------|
A |-----------------------------3---|-------------1-----------1---3---|
E |---------------------------------|---------------------3-----------|

Part B
G |---------------------------------|---------------------------------|
D |-----5-------0---3---0---3-------|-------------------------/8h10---|
A |-----------------------------3---|-----3---3---3-/-6---6-----------|
E |-3-------------------------------|---------------------------------|

G |---------------------------------|---------------------------------|
D |-----5-------0---3---0---3-------|---------------------------------|
A |-----------------------------3---|-----3---3-------1-------1-------|
E |-3-------------------------------|-------------3-------------------|

Order:
[00:07] Part A 2x
[00:19] Part B 6x
Repeat over and over again


		
Scroll