The Smiths & Morrissey Bass Tabs

Half A Person

(Morrissey/Marr)
			
Intro Slide
G |---------------------------------|
D |---------------------------------|
A |---------------------------------|
E |--------------------------10\----|

Verse
G |---------------------------------||
D |---------------------------------||
A |---------------------------------||
E |-3---\---10-(10)-------0-0---2-0-|| x2

G |---------------------------------|---------------------------------|
D |---------------------------------|---------------------------------|
A |-2-------0-----------------------|---------------------------------|
E |-------3-------3-------3-3---2---|-0-----0-0-2-3-5-------5-5----(0)|

Bridge
G |---------------------------------|---------------------------------|
D |---------------------------------|---------------------------------|
A |-----------------------5---0-----|-----------------------------0-2-|
E |-2-----2-2-----2-3-------------2-|-2-----2-2-----2-3-----2-2-3-----|

Chorus
G |---------------------------------|---------------------------------|
D |---------------------------------|---------------------------------|
A |-5-----5-5-------0-----0-0-------|-----------------2---------------|
E |-------------------------------0-|-2-----2-2-----2-------3-3-------|

G |---------------------------------|---------------------------------|
D |---------------------------------|-----------------4-----4-----5---|
A |-5-----5-5-------0-----0-0-------|-------------------------4-------|
E |-------------------------------0-|-2-----2-2-----2-----------------|

Order:
[00:00] Slide

[00:04] Verse 2x
[00:36] Bridge
[00:44] Chorus
Repeat above 2 times

[02:52] Verse until fade <span class="TABLYR">(That's the story of my life...)

		
Scroll