The Smiths & Morrissey Bass Tabs

Golden Lights

(Twinkle)
			
Intro
G |---------------------------------|
D |---------------2-----------------|
A |---------2-2-------x-2~~---------|
E |---------------------------------|

Verse
G |---------------------------------||
D |---------------------------------||
A |-----------2-4---2----/6----/9---||
E |-0-----4-------4-----------------|| 2x

G |---------------------------------|---------------------------------|
D |-----------------7~~-------------|----------------------/6-4-------|
A |-0~~---------5-7-----------------|-0~~-------------2-----------2---|
E |----------(7)--------------------|---------------------------------|

Chorus
G |---------------------------------||
D |---------------------------------||
A |-----------2-4---2----/6----/9---||
E |-0-----4-------4-----------------|| 2x

G |---------------------------------|---------------------------------|
D |-----------------------4---2-----|---------------2-----------------|
A |-----------2-----0-----------4---|---------2-2-------x-2~~---------|
E |-0-----4-----4-------------------|-0-------------------------------|

Break
G |------/6-----4-------------------|---------------------------------|
D |-2---------------------4-----2---|---------------------------------|
A |-----------------0---------------|-----------2-4---2----/6----/9---|
E |---------------------------------|-0-----4-------4-----------------|

Order:
[00:27] Intro
[00:30] Verse 2x
[01:06] Chorus
[01:23] Break
[01:31] Verse 2x
[02:07] Chorus
[02:24] Repeat Last Bar of Chorus

		
Scroll