The Smiths & Morrissey Bass Tabs

Girlfriend In A Coma

(Morrissey/Marr)
			
Intro
G |---------------------------------|---------------------------------||
D |-----5-------5-------5-------5---|-----5-------5-------5-------5---||
A |---------------------------------|---------------------------------||
E |-3-------3-------3-------3-------|-3-------3-------3-------3-------|| 2x

Verse
G |---------------------------------|---------------------------------||
D |---------------------------------|-------------5-------------------||
A |-------------------------3---5-5-|-3-------5-------5---------------||
E |-3-------3---3---3---------------|-------------------------0---2---|| 8x

Chorus
G |---------------------------------|---------------------------------||
D |-2---2---2-----------0-----------|-------------------------0-------||
A |---------------------------------|-3---3---3-----------------------||
E |---------------------------------|---------------------------------|| 2x

G |---------------------------------|---------------------------------|
D |-2---2---2-----------0-----------|---------------------------------|
A |---------------------------------|-3-------3-------3-------3-------|
E |---------------------------------|---------------------------------|

Order:
[00:00] Intro
[00:09] Verse
[00:45] Chorus
[01:00] Verse
[01:37] Chorus
[01:51] Verse (Play only 1 time)



		
Scroll