The Smiths & Morrissey Bass Tabs

Girl Afraid

(Morrissey/Marr)
			
Intro A
G |---------------------------------|---------------------------------|
D |---------------------------------|---------------------------------|
A |-7---7-------5---7-7-7-------5---|-0-0---0-2-2---2-3-3---3-5-2-5---|
E |---------7-----7-------7---7---7-|---------------------------------|

Intro B
G |---------------------------------||     |---------------------------------|
D |---------------------------------||     |-----------5-5-5-----------5-5-5-|
A |-7---7-------5---7-7-7-------5---||     |---------3-------3---------------|
E |---------7-----7-------7---7---7-|| 3x  |-3---3---------------------------|

Intro C
G |---------------------------------|---------------------------------|
D |---------------------------------|---------------------------------|
A |-7---7-------5---7-7-7-------5---|-0-0---0-2-2---2-3-3---3-5-2-5---|
E |---------7-----7-------7---7---7-|---------------------------------|

G |---------------------------------|---------------------------------|
D |---------------------------------|---------------------------------|
A |-7---7-------5---7-7-7-------5---|-2-2-----2-2---5-5-0-5-0-4-2-0---|
E |---------7-----7-------7---7---7-|-------2-------------------------|

G |---------------------------------|---------------------------------|
D |---------------------------------|---------------------------------|
A |-7---7-------5---7-7-7-------5---|-0-0---0-2-2---2-3-3---3-5-2-5---|
E |---------7-----7-------7---7---7-|---------------------------------|

                                       Vocals enter
G |---------------------------------| |---------------------------------||
D |---------------------------------| |---------------------------------||
A |-7---7-------5---7-7-7-------5---| |-2-2-----2-2---5-5-0-5-0-4-2-0---||
E |---------7-----7-------7---7---7-| |-------2-------------------------|| 2x

Bridge
G |---------------------------------|---------------------------------|
D |---------4---0----------/7-------|---------------------------------|
A |-----------------4---------------|-------------6-------7-----------|
E |-2-----2-------------------------|-4-4---4-4-4---4-5-5---5-7---8---|

Chorus
G |-------------------------4-------|---------------------------------||
D |---------6-----2---2-2-2---------|-------------------------6---4---||
A |-4-----4---2-4-------------------|-0-------0---4-0---2-/(4)--------||
E |---------------------------------|---------------------------------|| 4x

Chorus Ending
G |---------------------------------|
D |---------------------------------|
A |-0---0-0-0-0-0-5-5-5-5-5-5-5-5-6-|
E |---------------------------------|

Order:
[00:03] Intro A
[00:08] Intro B 2x

[00:31] Intro C
[00:54] Bridge
[01:00] Chorus | Chorus Ending (Without last bar)

[01:25] Intro B (Skip the first bar)
[01:33] Intro B

[01:44] Intro C
[02:08] Bridge
[02:14] Chorus | Chorus Ending


		
Scroll