The Smiths & Morrissey Bass Tabs

Frankly, Mr. Shankly

(Morrissey/Marr)
			
Intro
G |---------------------------------|
D |---------------------------------|
A |---------------------------------|
E |-0-------0-------2-------4-------|

Verse A & Verse B (replace last bar)
G |---------------------------------|---------------------------------|
D |-----------------------------2---|-------------------------2---4---|
A |-0---------------0---2---4-------|-4-------0---4---2---------------|
E |---------0-----------------------|---------------------------------|

G |---------------------------------|---------------------------------| |---------------------------------|
D |-------------------------2---4---|---------------------------------| |---------------------------------|
A |-4-----------4---2---------------|---------------------------------| |-0---------------0-------2-------|
E |---------4-----------------------|-0-------0-------0---0---2---4---| |---------------------------------|

Verse End
G |---------------------------------|
D |---------------------------------|
A |---------------------------------|
E |-0-------0-------0---0---2---4---|

Instrumental
G |---------------------------------|---------------------------------|
D |---------------------------------|---------------------------------|
A |-0---------------2---2---4-------|-0-------------------2---4-------|
E |---------0-----------------------|---------0-----------------------|

G |---------------------------------|---------------------------------|
D |---------------------------------|-------------------------2-------|
A |-0---------------2---2---4-------|---------------------2-----------|
E |---------0-----------------------|-3---3-3---3-3-------------------|

G |---------------------------------|---------------------------------|
D |---------------------------------|---------------------------------|
A |-0---------------2---2---4-------|-0-------------------2---4-------|
E |---------0-----------------------|---------0-----------------------|

G |---------------------------------|---------------------------------|
D |---------------------------------|---------------------------------|
A |-0---------------2---2---4-------|---------------------2---0-------|
E |---------0-----------------------|-3---3-3---3-3-------------------|

Order:
[00:00] Intro
[00:02] Verse A,B,End
[00:22] Verse A,B
[00:39] Instrumental
[00:55] Intro
[00:58] Verse A,B,End
[01:17] Verse A,B,End
[01:36] Verse A,B,End
[01:56] Verse A,B


		
Scroll