The Smiths & Morrissey Bass Tabs

Death Of A Disco Dancer

(Morrissey/Marr)
			

Main Line [00:04]
G |---------------------------------|---------------------------------|
D |---------------------------------|---------------------5---4-------|
A |-2-----------2---0-----------0---|-----------------------------5---|
E |---------2---------------0-------|-4-----------3-------------------|

G |---------------------------------|---------------------------------|
D |---------------------------------|---------------------------------|
A |-2-----------2---0-----------0---|---------------------7---6---4---|
E |---------2---------------0-------|-4-----------0-------------------|

Line [00:16]
G |---------------------------------|---------------------------------|
D |---------------------------------|---------------------------------|
A |-2-----------2---0---------------|---------------------------------|
E |---------2-------------------0---|-4-----------3---------------0---|

G |---------------------------------|---------------------------------|
D |---------------------------------|---------------------------------|
A |-2---------------0---------------|---------------------7---6---4---|
E |---------2-------------------0---|-4-----------0-------------------|

Repeat Main Line [00:26]

Line [00:37]
G |---------------------------------|---------------------------------|
D |---------------------------------|---------------------------------|
A |-2-----------2---0-----------0---|---------------------------------|
E |---------2---------------0-------|-4-----------3----------(3)--0---|

G |---------------------------------|---------------------------------|
D |---------------------------------|---------------------------------|
A |-2-----------2---0-----------0---|---------------------7---6---4---|
E |---------2---------------0-------|-4-----------0-------------------|

Repeat Main Line [00:49]

Line [01:01]
G |---------------------------------|---------------------------------|
D |---------------------------------|---------------------5---4-------|
A |-2-----------2---0-------2---0---|-----------------------------5---| <-Look at that!
E |---------2-----------------------|-4-----------3-------------------|

G |---------------------------------|---------------------------------|
D |---------------------------------|---------------------------------|
A |-2-----------2---0-----------0---|---------------------7---6---4---|
E |---------2---------------0-------|-4-----------0-------------------|

Repeat Main Line [01:12]

Line [01:23]
G |---------------------------------|---------------------------------|
D |---------------------------------|---------------------5---4-------|
A |-2--2--------2---0--0--------0---|-----------------------------5---|
E |---------2---------------0-------|-4-----------3-------------------|

G |---------------------------------|---------------------------------|
D |---------------------------------|---------------------------------|
A |-2-----------2---0-----------0---|---------------------7---6---4---|
E |---------2---------------0-------|-4-----------0-------------------|

Repeat Main Line [01:34]

Line [01:40]
G |---------------------------------|---------------------------------|
D |---------------------------------|---------------------5---4-------|
A |-2-----------2---0-----------0---|-----------------------------5---|
E |---------2---------------0-------|-4-----------3-------------------|

G |---------------------------------|---------------------------------|
D |---------------------------------|---------------------------------|
A |-2-----------2---0--0--------0---|---------------------7---6---4---| <- Only a double note
E |---------2---------------0-------|-4-----------0-------------------|

Line [01:56]
G |---------------------------------|---------------------------------|
D |---------------------------------|----------2----------------------|
A |-2--2--------2---0--0--------0---|--------------------\7-------6---| <-Mmmm...
E |---------2---------------0-------|-4-----------3-------------------|

G |---------------------------------|---------------------------------|
D |---------------------------------|---------------------------------| <-Whoo!
A |-2-----------2---0--0--------0---|---------------------7---6---2---|
E |---------2---------------0-------|-4-----------0-------------------|

Line [02:08]
G |---------------------------------|---------------------------------|
D |---------------------------------|---------------------5---4-------|
A |-2--2--------2---0--0--------0---|-----------------------------5---|
E |---------2---------------0-------|-4---4-------3-------------------|

G |---------------------------------|---------------------------------|
D |---------------------------------|---------------------------------|
A |-2-----------2---0---------------|---------------------7---6---4---|
E |---------2-----------------------|-4---4-------0-------------------|

Line [02:20]
G |---------------------------------|---------------------------------|
D |---------------------------------|---------------------5---4-------|
A |-2--2------0-2---0--0--------0---|-----------------------------5---|
E |-------0h2---------------0-------|-4-----------3-------------------|

G |---------------------------------|---------------------------------|
D |---------------------------------|---------------------------------|
A |-2--2------0-2---0--0--------0---|---------------------7---6---4---|
E |-------0h2---------------0-------|-4---4-------0-------------------|

Repeat Main Line [02:31]

Repeat Main Line [02:42]

A Different Line [02:53]
G |---------------------------------|---------------------------------|
D |---------------------------------|---------------------------------|
A |---------------------------------|---------------------------------|
E |-7---7---7---7---5---5---5---5---|-4---4---4---4----0-------3---0--|

G |---------------------------------|--------------------------4---7--|
D |---------------------------------|---------------------------------|
A |---------------------------------|---------------------------------|
E |-7---7---7---7---5---5---5---5---|-4---4---4---4----3--------------|

G |---------------------------------|---------------------------------|
D |---------------------------------|---------------------------------|
A |---------------------------------|---------------------------------|
E |-7---7---7---7---5---5---5---5---|-4---4---4---4----0-------3---0--|

Order:
Figure It Out Yourself!


		
Scroll