The Smiths & Morrissey Bass Tabs

Death At One's Elbow

(Morrissey/Marr)
			
Riff A
G |---------------------------------|---------------------------------|
D |---------------------------------|---------------------------------|
A |---------------------------------|-3-------3-------5-------5-------|
E |-3---5-------5---3-------0---3---|---------------------------------|

G |---------------------------------|---------------------------------|
D |---------------------------------|---------------------------------|
A |---------------------------------|---------------------------------|
E |-5---5-------5---3---0---3---5---|-5---5-------5---3---0---3---5---|

Riff B
G |---------------------------------|---------------------------------|
D |---------------------------------|---------------------------------|
A |-5-------5-------5-------5-------|\5------\5------\5------\5-------|
E |---------------------------------|---------------------------------|

G |---------------------------------|---------------------------------|
D |---------------------------------|---------------------------------|
A |---------------------------------|---------------------------------|
E |-5---5-------5---3-------0---3---|-5---5-------5---3---3---2---0---|

G |---------------------------------|---------------------------------|
D |---------------------------------|---------------------------------|
A |---------------------------------|---------------------------------|
E |-0~~-------------1~~-------------|-3~~-----------------------------| (Last time 2x)

G |---------------------------------|---------------------------------|
D |---------------------------------|---------------------------------|
A |---------------------------------|---------------------------------|
E |-5---5-------5---3-------0---3---|-5---5-------5---3---0---3---5---|

Order:
[00:13] Riff A 2x
[00:28] Riff B
[00:44] Riff A 2x
[00:59] Riff B
[01:15] Riff A 2x (First bar more Silent)
[01:31] Riff B (Do 3rd Bar two times)
[01:50] 3rd Bar of Riff B again


		
Scroll