The Smiths & Morrissey Bass Tabs

Cemetry Gates

(Morrissey/Marr)
			
Intro
G |---------------------------------|---------------------------------|
D |---------------------------------|---------------------------------|
A |-3---3-3-3-5-------------3---5---|-3---3-3-3-5-------------3---5---|
E |---------------3---3-3-3---------|---------------3---3-3-3---------|

G |---------------------------------|---------------------------------|
D |---------------2-----------------|---------------------------------|
A |-3---3-3-3-5-------5---3-3-------|-3-3-3-5---5---------------------|
E |-----------------------------3-3-|-------------3-------------0-1---|

Verse
G |---------------------------------|-------------------------5-------|
D |---------5---------------5-------|---------5-----------------------|
A |---------------------------------|---------------3-----3-----------|
E |-3-------------3-----3-----------|-3-------------------------------|

G |---------5---------------7-------|---------------------------------|
D |-----------------------------5---|-2---2-2-2-----------------------|
A |-3-------------5-----5-----------|-----------2---3---3-3-3-3-5-5---|
E |---------------------------------|---------------------------------|

Verse End
G |---------5---------------7-------|---------------------------------|
D |---------------------------------|---------------------------------|
A |-3-------------5-----5-----------|----------------------------(0)--|
E |---------------------------------|-3-------5---3-------------------|

Bridge
G |---------------------------------|---------------------------------||
D |---------------4-----------------|---------------------------------||
A |-2-------2-----------------------|----------------------------5----||
E |--------------------(3)--5---3---|-3-------3---3-5---5----3--------|| 2x

G |---------------------------------|---------------------------------|
D |---------------------------------|---------------------------------|
A |-3-------------3-----3-----------|-5-------5-----5-----5-----------|
E |-------------3---------------3---|-------------5---------------5---|

G |---------------------------------|---------------------------------|
D |---------------------------------|---------------------1---1---1---|
A |-7-------7-----7-----7-----------|---------------------------------|
E |-------------7---------------7---|-1-----1-----1-----1-1---1---3---|

Outro
G |---------------------------------|---------------------------------|
D |---------------------------------|---------------------------------|
A |-3---3-3-3-5---------------------|-3---3-3-3-5---------------------|
E |---------------3~~---------------|---------------3~~---------------|

Order:
[00:00] Intro/Outro
[00:10] Verse 2x | Verse End
[00:33] Verse 2x | Verse End
[00:55] Bridge
[01:13] Verse 2x | Verse End
[01:36] Bridge
[01:54] Verse 2x | Verse End
[02:17] Outro until end (Play last notes very soft)


		
Scroll