The Smiths & Morrissey Bass Tabs

Bigmouth Strikes Again

(Morrissey/Marr)
			
Verse & Chorus
G |---------------------------8/9---|---------------------------------|
D |---------------------------------|---------------------------1-----|
A |-4---4---4-4-6-7-----7---7-------|-4---4---4-4-2-0---4-2-0-2---2-0-|
E |-------------------7---7---------|---------------------------------|

Instrumental                                                             Alt. Ending
G |-----6---6---------9---9---6-9\--|-----6---6-----------------------| |-----------------|
D |-----------4-6-----------4-------|-------------2-------2-----------| |----2-----1-2-1--|
A |-4-------------7-----------------|-4---------4---0---4---4-2---3---| |--4---4-2--------|
E |---------------------------------|---------------------------------| |-----------------|

Break
G |---------------------------------|---------------------------------|
D |-----6---6---------6-----4---4---|-----6---6---------7-------------|
A |---------------------------------|---------------------------------|
E |-4---------2-3-4-------2---------|-4---------2-4-5-------4-7---7---|

Order:
[00:07] Verse 6x
[00:50] Instrumental 4x (Last time use alt. ending)
[01:20] Chorus 6x
[02:02] Break 2x
[02:16] Verse Until End


		
Scroll