The Smiths & Morrissey Bass Tabs

Barbarism Begins At Home

(Morrissey/Marr)
			
Intro
G |--1---2-------|
D |--------------|
A |--------------|
E |--------------|

Main Line
G |---------------------1---2-------|---------------------------------|
D |-------4-------------------------|-------4-------------------------|
A |-------------2h4-----------------|-----------2-2h3-4-------3-------|
E |-2---------------2---------------|-2-------------------------------|

G |---------------------1---2-------|-------------------------2---1---|
D |---------------------------------|-0---0-0---1-1---2---------------|
A |-2-----2-------------------------|---------------------------------|
E |-------------4---5---------------|---------------------------------|

Main End 1                             Main End 2                          Main End 3
G |---------7p--------------2---1---| |---------------------------------| |---------------------------------|
D |-0---0-0-----1---2---------------| |-0---0-0---1-1---2------7\-------| |-0---0-0---1-1---2x---1-1---2\---|
A |---------------------------------| |---------------------------------| |---------------------------------|
E |---------------------------------| |---------------------------------| |---------------------------------|

Variant 1
G |---------------------------------|---------------------------------|
D |---------------------------------|---------------------------------|
A |---------------------------------|-----------------4-------3-------|
E |-2-------------------------------|-------------2-------------------|

G |---------------------------------|-------------------------2---1---|
D |---------------------------------|-0---0-0---0-1---2---------------|
A |-2-------------------------------|---------------------------------|
E |---------------------------------|---------------------------------|

Variant 2
G |---------------------1---2-------|---------------------------------|
D |-------4-------------------------|-------4-------------------------|
A |-------------2h4-----------------|-----------2-2h3-4-------3-----2-|
E |-2---------------2---------------|-2-------------------------------|
                                                                          Slide Note
G |---------------1h2-----1---------|-------------------------2---1---|  |-------|
D |---------1---4-------------------|-0---0-0---0-1---2---------------|  |-------|
A |---2-2-----------------------2---|---------------------------------|  |-7\----|
E |---------------------------------|---------------------------------|  |-----2-|

Order:
[00:00] Intro
[00:01] M | M1 | M | M | M | M
[00:47] M | M  | M | M2 1st Verse
[01:17] M | M (Whrouah!)
[01:33] M | M  | M | M2 2nd Verse
[02:03] M | M2 (Whrouah!)
[02:18] M | M  | M | M3 3rd Verse

[02:48] M | M  | M | M  4rd Strange Verse
[03:20] M | M2 | M | M  (Nah-nah-nah!)
[03:50] M | M  | M | M  (Nah-no-no!)
[04:20] M | M3 | M | M  (Nah-no-no!)
[04:50] M | M2 | M | M3
[05:18] M3

[05:27] Variant 1 | M | M | M
[05:57] M | M | M | M
[06:35] M | Variant 2 (Drum & Bass Only)
Slide last note

Note: M = Main Line M1 = Main End 1 etc...



		
Scroll