The Smiths & Morrissey Bass Tabs

Back To The Old House

(Morrissey/Marr)
			
Chorus
G |---------------------------------|---------------------------------|
D |----------\4-\7------------------|----------\4-\7------------------|
A |-5---------------2---------------|-5---------------2----0----------|
E |-------------------------3-------|-------------------------3---5---|

G |---------------------------------|----------------------4------7---|
D |----------\4-\7------------------|----------\4-\7--2-------5-------|
A |-5---------------2---------------|-5-------------------------------|
E |-------------------------3-------|---------------------------------|

Bridge
G |---------------------------------||     |---------------------------------|
D |---------------------------------||     |---------------------------------|
A |---------5---------------7-------||     |---------5---------------2-------|
E |-3------------3--5-----------5---|| 2x  |-3------------3--5---------------|

G |---------------------7-------9---||     |---------------------------------|
D |-------------------7-------9-----||     |-------------------------6-------|
A |---------4-------5-------7-------||     |---------------2-4-------------2-|
E |-2-------------2-----------------|| 2x  |-2-------------------------------|

G |---------------------------------|-----------------5---------------|
D |---------------------------------|---------5---------------5-------|
A |-0-------7---------------7-------|-3-------------------------------|
E |---------------4-5---------4-5---|---------------------------------|

Order:
[00:00] Chorus 2x
[00:27] Chorus (Only play first two bars)
[00:34] Bridge
Repeat everything again

[02:04] Chorus until end


		
Scroll