The Smiths & Morrissey Bass Tabs

Ask

(Morrissey/Marr)
			
Intro
G |---------------------------------|---------------------------------|
D |---------------------------------|---------------------------------|
A |---------------------------------|----------------/8---/8---/8-----| (Some funny slides)
E |-3\0---------------------0---2---|-3-------------------------------|

Verse
G |---------------------------------|---------------------------------|
D |---------------------------------|---------------------------------|
A |-----------------3-----5---5-3-2-|-----------------3-----5---5-3-2-|
E |-3-------5-----------------------|-3-------5-----------------------|

Chorus
G |---------------------------------|---------------------------------|
D |---------------------------------|---------------------------------|
A |---------------------------------|---------------------------------|
E |-3-----------------------0---2---|-3-------------------------------|

Bomb
G |-------------9---7-------7-------|-7----\(5)--5-----------5-4------|
D |-----------------------------0---|----------------------------5----|
A |-7-------------------------------|---------------------------------|
E |---------------------------------|---------------------------------|

G |-------------9---7-------7-------|-7----\(5)--5--------------------|
D |-----------------------------0---|---------------------------------|
A |-7-------------------------------|---------------------------------|
E |---------------------------------|---------------------------------|

Order:
[00:00] Intro
[00:06] Verse 12x
[01:15] Chorus
[01:21] Verse 2x
[01:30] Bomb
[01:41] Verse 2x
[01:53] Chorus
[01:59] Verse 4x
[02:22] Chorus
[02:27] Verse until fade


		
Scroll