The Smiths & Morrissey Bass Tabs

Accept Yourself

(Morrissey/Marr)
			
Verse A
G |---------------------------------|---------------------------------|
D |---------------------------4-(4)-|---------------------------------|
A |-2---2-------------5---5---------|-2---2---------------------------|
E |-------4---2---4-----------------|-------4---2---4---3---3---5~~---|

Verse B                                                                 Verse End
G |---------------------------------|---------------------------------| |---------------------------------|
D |-----------------1---1-----------|-----------------------4---4-----| |---------------------------------|
A |-2---2-----------------1---------|---------------------------------| |---------------------------------|
E |-------4---2~~-------------2~~---|-5---2-5-2-5-2-5-2-2-------------| |-3----3----3----5----5----5------|

Bridge
G |-------4-------------------------|---------4~~-----------4---4-----||
D |-2---2-----2-----------4---------|-----------------2---2---2-----4-||
A |-----------------2---2-----2-----|---------------------------------||
E |---------------------------------|-2-4-4-4-------------------------|| 4x

Break
G |---------------------------------||     |---------------------------------|
D |---------------------------------||     |---------------------------------|
A |-2-2-2-0---0-4-0-2-2-2-------0-4-||     |---------------------------------|
E |-----------------------2---2-----|| 2x  |-0~~-------------2~~-------------|

Outro
G |-----------------|---------------------------------||     |-----|
D |-------4---4-----|---------------------------------||     |-----|
A |-----------------|---------------------------------||     |-----|
E |-2-2-------------|-3----3----3----5----5----5------|| 3x  |-7---|

Order:
[00:00] Verse A | Verse B
[00:13] Verse A | Verse B
[00:27] End
[00:29] Bridge
[00:55] Break
Repeat this 2 times

[03:15] Verse A | Verse B
[03:28] Verse A | Verse B | End
[03:41] Outro


		
Scroll