The Smiths & Morrissey Bass Tabs

A Rush And A Push And The Land Is Ours

(Morrissey/Marr)
			
[00:14] Intro (Soft)
G |---------------------------------||     |---------------------------------|
D |---------------------------------||     |---------------------------------|
A |-5~~-------------1~~-------------||     |-5~~---------3---1~~-------------|
D |---------------------------------|| 3x  |---------------------------------|

[00:32] Verse A
G |---------------------------------|---------------------------------|
D |---------------------------------|---------------------------------|
A |-----0-3-5---3---1-------1---3---|-----0-3-5---3---1-------1---3---|
D |---0-----------------5-3---------|-0-------------------5-3---------|

G |---------------------------------|---------------------------------|
D |-------------3-------------------|---------------------------------|
A |-----0-3-5-------1-------1---3---|-----0-3-5---3---1-------1---3---|
D |-0-------------------5-3---------|-0-------------------5-3---------|

[00:49] Bridge
G |---------------------------------|---------------------------------|
D |---------------------------------|---------------------------------|
A |-----------------------------0---|-------------------------1---3---|
E |-1-----5-----1---0-----3---------|-1-----5-----1---0---------------|

[00:58] Verse B
G |---------------------------------|---------------------------------|
D |---------------------------------|---------------------------------|
A |-----0-3-5---3---1-------1---3---|-----0-3-5---3---1-------1-------|
D |-0-------------------5-3---------|-0-------------------5-3-----3---|

G |---------------------------------|---------------------------------|
D |---------------------------------|-------------3-------------------|
A |-----0-3-5---3---1-------1---3---|-5---0-3-5-------1-------1---3---|
D |-0-------------------5-3---------|---------------------5-3---------|

[01:15] Repeat Bridge

[01:24] Verse C
G |---------------------------------|---------------------------------|
D |---------------------------------|-------------3-------------------|
A |-5---0-3-5---3---1-------1-------|-----0-3-5-------1-------1---3---|
D |---------------------5-3-----3---|-0-------------------5-3---------|

G |---------------------------------|---------------------------------|
D |---------------------------------|---------------------------------|
A |-----0-3-5---3---1-------1---3---|-----0-3-5---3---1-------1---3---|
D |-0-------------------5-3-------3-|-0-------------------5-3---------|

[01:41] Repeat Bridge

[01:50] Verse D
G |---------------------------------| |---------------------------------||     |---------------------------------|
D |---------------------------------| |---------------------------------||     |-------------3-------------------|
A |-----0-3-5---3---1-------1-------| |-----0-3-5---3---1-------1---3---||     |-5---0-3-5-------1-------1---3---|
D |-0-------------------5-3-----3---| |-0-------------------5-3---------|| 2x  |---------------------5-3---------|

[02:08] Bridge Until End (But only play first bar)

		
Scroll